  0
SECTION
  2
HEADER
  9
$ACADVER
  1
AC1015
  9
$ACADMAINTVER
 70
     6
  9
$DWGCODEPAGE
  3
ANSI_1254
  9
$INSBASE
 10
0.0
 20
0.0
 30
0.0
  9
$EXTMIN
 10
0.0
 20
0.0
 30
0.0
  9
$EXTMAX
 10
279.4
 20
215.9
 30
0.0
  9
$LIMMIN
 10
0.0
 20
0.0
  9
$LIMMAX
 10
279.4
 20
215.9
  9
$ORTHOMODE
 70
     0
  9
$REGENMODE
 70
     1
  9
$FILLMODE
 70
     1
  9
$QTEXTMODE
 70
     0
  9
$MIRRTEXT
 70
     1
  9
$LTSCALE
 40
1.0
  9
$ATTMODE
 70
     1
  9
$TEXTSIZE
 40
3.5
  9
$TRACEWID
 40
1.0
  9
$TEXTSTYLE
  7
Standard
  9
$CLAYER
  8
0
  9
$CELTYPE
  6
ByLayer
  9
$CECOLOR
 62
   256
  9
$CELTSCALE
 40
1.0
  9
$DISPSILH
 70
     0
  9
$DIMSCALE
 40
1.0
  9
$DIMASZ
 40
3.5
  9
$DIMEXO
 40
1.0
  9
$DIMDLI
 40
3.75
  9
$DIMRND
 40
0.0
  9
$DIMDLE
 40
0.0
  9
$DIMEXE
 40
1.0
  9
$DIMTP
 40
0.0
  9
$DIMTM
 40
0.0
  9
$DIMTXT
 40
3.5
  9
$DIMCEN
 40
2.5
  9
$DIMTSZ
 40
0.0
  9
$DIMTOL
 70
     0
  9
$DIMLIM
 70
     0
  9
$DIMTIH
 70
     1
  9
$DIMTOH
 70
     1
  9
$DIMSE1
 70
     0
  9
$DIMSE2
 70
     0
  9
$DIMTAD
 70
     1
  9
$DIMZIN
 70
     0
  9
$DIMBLK
  1

  9
$DIMASO
 70
     1
  9
$DIMSHO
 70
     1
  9
$DIMPOST
  1

  9
$DIMAPOST
  1

  9
$DIMALT
 70
     0
  9
$DIMALTD
 70
     3
  9
$DIMALTF
 40
0.0393700787
  9
$DIMLFAC
 40
1.0
  9
$DIMTOFL
 70
     1
  9
$DIMTVP
 40
0.0
  9
$DIMTIX
 70
     0
  9
$DIMSOXD
 70
     0
  9
$DIMSAH
 70
     0
  9
$DIMBLK1
  1

  9
$DIMBLK2
  1

  9
$DIMSTYLE
  2
ISO-25
  9
$DIMCLRD
 70
     0
  9
$DIMCLRE
 70
     0
  9
$DIMCLRT
 70
     0
  9
$DIMTFAC
 40
1.0
  9
$DIMGAP
 40
1.524
  9
$DIMJUST
 70
     0
  9
$DIMSD1
 70
     0
  9
$DIMSD2
 70
     0
  9
$DIMTOLJ
 70
     0
  9
$DIMTZIN
 70
     0
  9
$DIMALTZ
 70
     0
  9
$DIMALTTZ
 70
     0
  9
$DIMUPT
 70
     0
  9
$DIMDEC
 70
     2
  9
$DIMTDEC
 70
     2
  9
$DIMALTU
 70
     2
  9
$DIMALTTD
 70
     3
  9
$DIMTXSTY
  7
Standard
  9
$DIMAUNIT
 70
     0
  9
$DIMADEC
 70
     2
  9
$DIMALTRND
 40
0.0
  9
$DIMAZIN
 70
     0
  9
$DIMDSEP
 70
    44
  9
$DIMATFIT
 70
     3
  9
$DIMFRAC
 70
     0
  9
$DIMLDRBLK
  1

  9
$DIMLUNIT
 70
     2
  9
$DIMLWD
 70
    -2
  9
$DIMLWE
 70
    -2
  9
$DIMTMOVE
 70
     0
  9
$LUNITS
 70
     2
  9
$LUPREC
 70
     2
  9
$SKETCHINC
 40
1.0
  9
$FILLETRAD
 40
10.0
  9
$AUNITS
 70
     0
  9
$AUPREC
 70
     2
  9
$MENU
  1
.
  9
$ELEVATION
 40
0.0
  9
$PELEVATION
 40
0.0
  9
$THICKNESS
 40
0.0
  9
$LIMCHECK
 70
     0
  9
$CHAMFERA
 40
0.0
  9
$CHAMFERB
 40
0.0
  9
$CHAMFERC
 40
0.0
  9
$CHAMFERD
 40
0.0
  9
$SKPOLY
 70
     0
  9
$TDCREATE
 40
2458985.636222396
  9
$TDUCREATE
 40
2458985.511222396
  9
$TDUPDATE
 40
2458985.63622272
  9
$TDUUPDATE
 40
2458985.51122272
  9
$TDINDWG
 40
0.0000000116
  9
$TDUSRTIMER
 40
0.0000000116
  9
$USRTIMER
 70
     1
  9
$ANGBASE
 50
0.0
  9
$ANGDIR
 70
     0
  9
$PDMODE
 70
     0
  9
$PDSIZE
 40
-1.0
  9
$PLINEWID
 40
0.0
  9
$SPLFRAME
 70
     0
  9
$SPLINETYPE
 70
     6
  9
$SPLINESEGS
 70
     8
  9
$HANDSEED
  5
CC
  9
$SURFTAB1
 70
     6
  9
$SURFTAB2
 70
     6
  9
$SURFTYPE
 70
     6
  9
$SURFU
 70
     6
  9
$SURFV
 70
     6
  9
$UCSBASE
  2

  9
$UCSNAME
  2

  9
$UCSORG
 10
0.0
 20
0.0
 30
0.0
  9
$UCSXDIR
 10
1.0
 20
0.0
 30
0.0
  9
$UCSYDIR
 10
0.0
 20
1.0
 30
0.0
  9
$UCSORTHOREF
  2

  9
$UCSORTHOVIEW
 70
     0
  9
$UCSORGTOP
 10
0.0
 20
0.0
 30
0.0
  9
$UCSORGBOTTOM
 10
0.0
 20
0.0
 30
0.0
  9
$UCSORGLEFT
 10
0.0
 20
0.0
 30
0.0
  9
$UCSORGRIGHT
 10
0.0
 20
0.0
 30
0.0
  9
$UCSORGFRONT
 10
0.0
 20
0.0
 30
0.0
  9
$UCSORGBACK
 10
0.0
 20
0.0
 30
0.0
  9
$PUCSBASE
  2

  9
$PUCSNAME
  2

  9
$PUCSORG
 10
0.0
 20
0.0
 30
0.0
  9
$PUCSXDIR
 10
1.0
 20
0.0
 30
0.0
  9
$PUCSYDIR
 10
0.0
 20
1.0
 30
0.0
  9
$PUCSORTHOREF
  2

  9
$PUCSORTHOVIEW
 70
     0
  9
$PUCSORGTOP
 10
0.0
 20
0.0
 30
0.0
  9
$PUCSORGBOTTOM
 10
0.0
 20
0.0
 30
0.0
  9
$PUCSORGLEFT
 10
0.0
 20
0.0
 30
0.0
  9
$PUCSORGRIGHT
 10
0.0
 20
0.0
 30
0.0
  9
$PUCSORGFRONT
 10
0.0
 20
0.0
 30
0.0
  9
$PUCSORGBACK
 10
0.0
 20
0.0
 30
0.0
  9
$USERI1
 70
     0
  9
$USERI2
 70
     0
  9
$USERI3
 70
     0
  9
$USERI4
 70
     0
  9
$USERI5
 70
     0
  9
$USERR1
 40
0.0
  9
$USERR2
 40
0.0
  9
$USERR3
 40
0.0
  9
$USERR4
 40
0.0
  9
$USERR5
 40
0.0
  9
$WORLDVIEW
 70
     1
  9
$SHADEDGE
 70
     3
  9
$SHADEDIF
 70
    70
  9
$TILEMODE
 70
     1
  9
$MAXACTVP
 70
    64
  9
$PINSBASE
 10
0.0
 20
0.0
 30
0.0
  9
$PLIMCHECK
 70
     0
  9
$PEXTMIN
 10
1.0000000000E+20
 20
1.0000000000E+20
 30
1.0000000000E+20
  9
$PEXTMAX
 10
-1.0000000000E+20
 20
-1.0000000000E+20
 30
-1.0000000000E+20
  9
$PLIMMIN
 10
0.0
 20
0.0
  9
$PLIMMAX
 10
420.0
 20
297.0
  9
$UNITMODE
 70
     0
  9
$VISRETAIN
 70
     1
  9
$PLINEGEN
 70
     0
  9
$PSLTSCALE
 70
     1
  9
$TREEDEPTH
 70
  3020
  9
$CMLSTYLE
  2
Standard
  9
$CMLJUST
 70
     0
  9
$CMLSCALE
 40
20.0
  9
$PROXYGRAPHICS
 70
     1
  9
$MEASUREMENT
 70
     1
  9
$CELWEIGHT
370
    -1
  9
$ENDCAPS
280
     0
  9
$JOINSTYLE
280
     0
  9
$LWDISPLAY
290
     1
  9
$INSUNITS
 70
     4
  9
$HYPERLINKBASE
  1

  9
$STYLESHEET
  1

  9
$XEDIT
290
     1
  9
$CEPSNTYPE
380
     0
  9
$PSTYLEMODE
290
     1
  9
$FINGERPRINTGUID
  2
{fa4618ac-6b81-4c54-ae86-444939aba276}
  9
$VERSIONGUID
  2
{FAEB1C32-E019-11D5-929B-00C0DF256EC4}
  9
$EXTNAMES
290
     1
  9
$PSVPSCALE
 40
0.0
  9
$OLESTARTUP
290
     0
  0
ENDSEC
  0
SECTION
  2
CLASSES
  0
CLASS
  1
ACDBDICTIONARYWDFLT
  2
AcDbDictionaryWithDefault
  3
ObjectDBX Classes
 90
        0
280
     0
281
     0
  0
CLASS
  1
VISUALSTYLE
  2
AcDbVisualStyle
  3
ObjectDBX Classes
 90
     4095
280
     0
281
     0
  0
CLASS
  1
MATERIAL
  2
AcDbMaterial
  3
ObjectDBX Classes
 90
     1153
280
     0
281
     0
  0
CLASS
  1
SCALE
  2
AcDbScale
  3
ObjectDBX Classes
 90
     1153
280
     0
281
     0
  0
CLASS
  1
TABLESTYLE
  2
AcDbTableStyle
  3
ObjectDBX Classes
 90
     4095
280
     0
281
     0
  0
CLASS
  1
MLEADERSTYLE
  2
AcDbMLeaderStyle
  3
ACDB_MLEADERSTYLE_CLASS
 90
     4095
280
     0
281
     0
  0
CLASS
  1
SUN
  2
AcDbSun
  3
SCENEOE
 90
     1153
280
     0
281
     0
  0
CLASS
  1
ACDBPLACEHOLDER
  2
AcDbPlaceHolder
  3
ObjectDBX Classes
 90
        0
280
     0
281
     0
  0
CLASS
  1
LAYOUT
  2
AcDbLayout
  3
ObjectDBX Classes
 90
        0
280
     0
281
     0
  0
ENDSEC
  0
SECTION
  2
TABLES
  0
TABLE
  2
VPORT
  5
8
330
0
100
AcDbSymbolTable
 70
     1
  0
VPORT
  5
29
330
8
100
AcDbSymbolTableRecord
100
AcDbViewportTableRecord
  2
*Active
 70
     0
 10
0.0
 20
0.0
 11
1.0
 21
1.0
 12
139.7
 22
107.95
 13
0.0
 23
0.0
 14
10.0
 24
10.0
 15
10.0
 25
10.0
 16
0.0
 26
0.0
 36
1.0
 17
0.0
 27
0.0
 37
0.0
 40
215.9
 41
1.2941176471
 42
50.0
 43
0.0
 44
0.0
 50
0.0
 51
0.0
 71
     0
 72
  2000
 73
     1
 74
     3
 75
     0
 76
     0
 77
     0
 78
     0
281
     0
 65
     1
110
0.0
120
0.0
130
0.0
111
1.0
121
0.0
131
0.0
112
0.0
122
1.0
132
0.0
 79
     0
146
0.0
  0
ENDTAB
  0
TABLE
  2
LTYPE
  5
5
330
0
100
AcDbSymbolTable
 70
     6
  0
LTYPE
  5
14
330
5
100
AcDbSymbolTableRecord
100
AcDbLinetypeTableRecord
  2
ByBlock
 70
     0
  3

 72
    65
 73
     0
 40
0.0
  0
LTYPE
  5
15
330
5
100
AcDbSymbolTableRecord
100
AcDbLinetypeTableRecord
  2
ByLayer
 70
     0
  3

 72
    65
 73
     0
 40
0.0
  0
LTYPE
  5
16
330
5
100
AcDbSymbolTableRecord
100
AcDbLinetypeTableRecord
  2
Continuous
 70
     0
  3
Solid line
 72
    65
 73
     0
 40
0.0
  0
LTYPE
  5
6E
330
5
100
AcDbSymbolTableRecord
100
AcDbLinetypeTableRecord
  2
HIDDEN
 70
     0
  3
Hidden __ __ __ __ __ __ __ __ __ __ __ __ __ __
 72
    65
 73
     2
 40
1.905
 49
1.27
 74
     0
 49
-0.635
 74
     0
  0
LTYPE
  5
6F
330
5
100
AcDbSymbolTableRecord
100
AcDbLinetypeTableRecord
  2
PHANTOM
 70
     0
  3
Phantom ______  __  __  ______  __  __  ______
 72
    65
 73
     6
 40
12.7
 49
6.35
 74
     0
 49
-1.27
 74
     0
 49
1.27
 74
     0
 49
-1.27
 74
     0
 49
1.27
 74
     0
 49
-1.27
 74
     0
  0
LTYPE
  5
70
330
5
100
AcDbSymbolTableRecord
100
AcDbLinetypeTableRecord
  2
CENTER
 70
     0
  3
Center ____ _ ____ _ ____ _ ____ _ ____ _ ____
 72
    65
 73
     4
 40
10.16
 49
6.35
 74
     0
 49
-1.27
 74
     0
 49
1.27
 74
     0
 49
-1.27
 74
     0
  0
LTYPE
  5
71
330
5
100
AcDbSymbolTableRecord
100
AcDbLinetypeTableRecord
  2
CENTERX2
 70
     0
  3
Center (2x) ________  __  ________  __  _____
 72
    65
 73
     4
 40
20.32
 49
12.7
 74
     0
 49
-2.54
 74
     0
 49
2.54
 74
     0
 49
-2.54
 74
     0
  0
LTYPE
  5
72
330
5
100
AcDbSymbolTableRecord
100
AcDbLinetypeTableRecord
  2
DOT2
 70
     0
  3
Dot (.5x) ........................................
 72
    65
 73
     2
 40
0.635
 49
0.0
 74
     0
 49
-0.635
 74
     0
  0
ENDTAB
  0
TABLE
  2
LAYER
  5
2
330
0
100
AcDbSymbolTable
 70
    17
  0
LAYER
  5
10
330
2
100
AcDbSymbolTableRecord
100
AcDbLayerTableRecord
  2
0
 70
     0
 62
     7
  6
Continuous
370
    -3
390
F
  0
LAYER
  5
73
330
2
100
AcDbSymbolTableRecord
100
AcDbLayerTableRecord
  2
FORMAT
 70
     0
 62
     7
  6
Continuous
370
    -3
390
F
  0
LAYER
  5
74
330
2
100
AcDbSymbolTableRecord
100
AcDbLayerTableRecord
  2
YARDIMCI_GEOMETRI
 70
     0
 62
    -6
  6
Continuous
290
     0
370
    -3
390
F
  0
LAYER
  5
75
330
2
100
AcDbSymbolTableRecord
100
AcDbLayerTableRecord
  2
SAYFA_CERCEVESI
 70
     0
 62
     7
  6
Continuous
370
    25
390
F
  0
LAYER
  5
76
330
2
100
AcDbSymbolTableRecord
100
AcDbLayerTableRecord
  2
ANTET
 70
     0
 62
     7
  6
Continuous
370
    -3
390
F
  0
LAYER
  5
77
330
2
100
AcDbSymbolTableRecord
100
AcDbLayerTableRecord
  2
OLCU
 70
     0
 62
   150
  6
Continuous
370
    -3
390
F
  0
LAYER
  5
78
330
2
100
AcDbSymbolTableRecord
100
AcDbLayerTableRecord
  2
METIN
 70
     0
 62
    96
  6
Continuous
370
    -3
390
F
  0
LAYER
  5
79
330
2
100
AcDbSymbolTableRecord
100
AcDbLayerTableRecord
  2
BALON
 70
     0
 62
     5
  6
Continuous
370
    -3
390
F
  0
LAYER
  5
7A
330
2
100
AcDbSymbolTableRecord
100
AcDbLayerTableRecord
  2
VURGU
 70
     0
 62
     7
  6
Continuous
370
    -3
390
F
  0
LAYER
  5
7B
330
2
100
AcDbSymbolTableRecord
100
AcDbLayerTableRecord
  2
SILIK
 70
     0
 62
     7
  6
Continuous
370
    -3
390
F
  0
LAYER
  5
7C
330
2
100
AcDbSymbolTableRecord
100
AcDbLayerTableRecord
  2
MODEL
 70
     0
 62
     7
  6
Continuous
370
    -3
390
F
  0
LAYER
  5
7D
330
2
100
AcDbSymbolTableRecord
100
AcDbLayerTableRecord
  2
DETAYLANDıRMA
 70
     0
 62
   190
  6
Continuous
370
    -3
390
F
  0
LAYER
  5
7E
330
2
100
AcDbSymbolTableRecord
100
AcDbLayerTableRecord
  2
TOLERANS
 70
     0
 62
   230
  6
Continuous
370
    -3
390
F
  0
LAYER
  5
7F
330
2
100
AcDbSymbolTableRecord
100
AcDbLayerTableRecord
  2
MERKEZ_CIZGILERI
 70
     0
 62
    30
  6
Continuous
370
    -3
390
F
  0
LAYER
  5
80
330
2
100
AcDbSymbolTableRecord
100
AcDbLayerTableRecord
  2
KESIT-DETAY_CIZGILERI
 70
     0
 62
     7
  6
Continuous
370
    -3
390
F
  0
LAYER
  5
81
330
2
100
AcDbSymbolTableRecord
100
AcDbLayerTableRecord
  2
\U+041E\U+0421\U+0415\U+0412\U+042B\U+0415
 70
     0
 62
     7
  6
Continuous
370
    -3
390
F
  0
LAYER
  5
82
330
2
100
AcDbSymbolTableRecord
100
AcDbLayerTableRecord
  2
\U+0412\U+041E\U+0414\U+042F\U+041D\U+042B\U+0415_\U+0417\U+041D\U+0410\U+041A\U+0418
 70
     0
 62
    11
  6
Continuous
370
    -3
390
F
  0
ENDTAB
  0
TABLE
  2
STYLE
  5
3
330
0
100
AcDbSymbolTable
 70
     1
  0
STYLE
  5
11
330
3
100
AcDbSymbolTableRecord
100
AcDbTextStyleTableRecord
  2
Standard
 70
     0
 40
0.0
 41
1.0
 50
0.0
 71
     0
 42
3.5
  3
txt
  4

  0
ENDTAB
  0
TABLE
  2
VIEW
  5
6
330
0
100
AcDbSymbolTable
 70
     0
  0
ENDTAB
  0
TABLE
  2
UCS
  5
7
330
0
100
AcDbSymbolTable
 70
     0
  0
ENDTAB
  0
TABLE
  2
APPID
  5
9
330
0
100
AcDbSymbolTable
 70
     1
  0
APPID
  5
12
330
9
100
AcDbSymbolTableRecord
100
AcDbRegAppTableRecord
  2
ACAD
 70
     0
  0
ENDTAB
  0
TABLE
  2
DIMSTYLE
  5
A
330
0
100
AcDbSymbolTable
 70
     1
100
AcDbDimStyleTable
  0
DIMSTYLE
105
27
330
A
100
AcDbSymbolTableRecord
100
AcDbDimStyleTableRecord
  2
ISO-25
 70
     0
 41
2.5
 42
0.625
 43
3.75
 44
1.25
 73
     0
 74
     0
 77
     1
 78
     8
140
2.5
141
2.5
143
0.0393700787
147
0.625
171
     3
172
     1
178
     0
271
     2
272
     2
274
     3
278
    44
283
     0
284
     8
340
11
  0
ENDTAB
  0
TABLE
  2
BLOCK_RECORD
  5
1
330
0
100
AcDbSymbolTable
 70
     2
  0
BLOCK_RECORD
  5
1F
330
1
100
AcDbSymbolTableRecord
100
AcDbBlockTableRecord
  2
*Model_Space
340
22
  0
BLOCK_RECORD
  5
1B
330
1
100
AcDbSymbolTableRecord
100
AcDbBlockTableRecord
  2
*Paper_Space
340
1E
  0
BLOCK_RECORD
  5
23
330
1
100
AcDbSymbolTableRecord
100
AcDbBlockTableRecord
  2
*Paper_Space0
340
26
  0
BLOCK_RECORD
  5
87
330
1
100
AcDbSymbolTableRecord
100
AcDbBlockTableRecord
  2
SW_CENTERMARKSYMBOL_0
340
0
102
{BLKREFS
331
92
102
}
  0
ENDTAB
  0
ENDSEC
  0
SECTION
  2
BLOCKS
  0
BLOCK
  5
20
330
1F
100
AcDbEntity
  8
0
100
AcDbBlockBegin
  2
*Model_Space
 70
     0
 10
0.0
 20
0.0
 30
0.0
  3
*Model_Space
  1

  0
ENDBLK
  5
21
330
1F
100
AcDbEntity
  8
0
100
AcDbBlockEnd
  0
BLOCK
  5
1C
330
1B
100
AcDbEntity
 67
     1
  8
0
100
AcDbBlockBegin
  2
*Paper_Space
 70
     0
 10
0.0
 20
0.0
 30
0.0
  3
*Paper_Space
  1

  0
ENDBLK
  5
1D
330
1B
100
AcDbEntity
 67
     1
  8
0
100
AcDbBlockEnd
  0
BLOCK
  5
24
330
23
100
AcDbEntity
  8
0
100
AcDbBlockBegin
  2
*Paper_Space0
 70
     0
 10
0.0
 20
0.0
 30
0.0
  3
*Paper_Space0
  1

  0
ENDBLK
  5
25
330
23
100
AcDbEntity
  8
0
100
AcDbBlockEnd
  0
BLOCK
  5
88
330
87
100
AcDbEntity
  8
0
100
AcDbBlockBegin
  2
SW_CENTERMARKSYMBOL_0
 70
     0
 10
0.0
 20
0.0
 30
0.0
  3
SW_CENTERMARKSYMBOL_0
  1

  0
LINE
  5
8A
330
87
100
AcDbEntity
  8
FORMAT
 62
     0
100
AcDbLine
 10
0.0
 20
0.0
 30
0.0
 11
0.0
 21
2.5
 31
0.0
  0
LINE
  5
8B
330
87
100
AcDbEntity
  8
FORMAT
 62
     0
100
AcDbLine
 10
0.0
 20
0.0
 30
0.0
 11
-2.5
 21
0.0
 31
0.0
  0
LINE
  5
8C
330
87
100
AcDbEntity
  8
FORMAT
 62
     0
100
AcDbLine
 10
0.0
 20
0.0
 30
0.0
 11
0.0
 21
-2.5
 31
0.0
  0
LINE
  5
8D
330
87
100
AcDbEntity
  8
FORMAT
 62
     0
100
AcDbLine
 10
0.0
 20
0.0
 30
0.0
 11
2.5
 21
0.0
 31
0.0
  0
LINE
  5
8E
330
87
100
AcDbEntity
  8
FORMAT
 62
     0
100
AcDbLine
 10
0.0
 20
5.0
 30
0.0
 11
0.0
 21
39.0
 31
0.0
  0
LINE
  5
8F
330
87
100
AcDbEntity
  8
FORMAT
 62
     0
100
AcDbLine
 10
-5.0
 20
0.0
 30
0.0
 11
-39.0
 21
0.0
 31
0.0
  0
LINE
  5
90
330
87
100
AcDbEntity
  8
FORMAT
 62
     0
100
AcDbLine
 10
0.0
 20
-5.0
 30
0.0
 11
0.0
 21
-39.0
 31
0.0
  0
LINE
  5
91
330
87
100
AcDbEntity
  8
FORMAT
 62
     0
100
AcDbLine
 10
5.0
 20
0.0
 30
0.0
 11
39.0
 21
0.0
 31
0.0
  0
ENDBLK
  5
89
330
87
100
AcDbEntity
  8
0
100
AcDbBlockEnd
  0
ENDSEC
  0
SECTION
  2
ENTITIES
  0
CIRCLE
  5
83
330
1F
100
AcDbEntity
  8
0
  6
Continuous
 62
     7
370
    25
100
AcDbCircle
 10
142.9934680851
 20
119.1714893617
 30
0.0
 40
19.99999999999999
  0
CIRCLE
  5
84
330
1F
100
AcDbEntity
  8
0
  6
Continuous
 62
     7
370
    25
100
AcDbCircle
 10
142.9934680851
 20
119.1714893617
 30
0.0
 40
16.29999999999997
  0
CIRCLE
  5
85
330
1F
100
AcDbEntity
  8
0
  6
Continuous
 62
     7
370
    25
100
AcDbCircle
 10
142.9934680851
 20
119.1714893617
 30
0.0
 40
25.49999999999999
  0
CIRCLE
  5
86
330
1F
100
AcDbEntity
  8
0
  6
Continuous
 62
     7
370
    25
100
AcDbCircle
 10
142.9934680851
 20
119.1714893617
 30
0.0
 40
36.5
  0
INSERT
  5
92
330
1F
100
AcDbEntity
  8
FORMAT
 62
     7
100
AcDbBlockReference
  2
SW_CENTERMARKSYMBOL_0
 10
142.9934680851
 20
119.1714893617
 30
0.0
  0
LINE
  5
93
330
1F
100
AcDbEntity
  8
0
  6
Continuous
 62
     7
370
    25
100
AcDbLine
 10
179.4934680851
 20
207.7272311486
 30
0.0
 11
179.4934680851
 21
218.7272311486
 31
0.0
  0
LINE
  5
94
330
1F
100
AcDbEntity
  8
0
  6
Continuous
 62
     7
370
    25
100
AcDbLine
 10
106.4934680851
 20
218.7272311486
 30
0.0
 11
106.4934680851
 21
207.7272311486
 31
0.0
  0
LINE
  5
95
330
1F
100
AcDbEntity
  8
0
  6
Continuous
 62
     7
370
    25
100
AcDbLine
 10
168.4934680851
 20
218.7272311486
 30
0.0
 11
162.9934680851
 21
235.7272311486
 31
0.0
  0
LINE
  5
96
330
1F
100
AcDbEntity
  8
0
  6
Continuous
 62
     7
370
    25
100
AcDbLine
 10
122.9934680851
 20
235.7272311486
 30
0.0
 11
117.4934680851
 21
218.7272311486
 31
0.0
  0
LINE
  5
97
330
1F
100
AcDbEntity
  8
0
  6
Continuous
 62
     7
370
    25
100
AcDbLine
 10
162.9934680851
 20
235.7272311486
 30
0.0
 11
162.9934680851
 21
295.7272311486
 31
0.0
  0
LINE
  5
98
330
1F
100
AcDbEntity
  8
0
  6
Continuous
 62
     7
370
    25
100
AcDbLine
 10
122.9934680851
 20
295.7272311486
 30
0.0
 11
122.9934680851
 21
235.7272311486
 31
0.0
  0
LINE
  5
99
330
1F
100
AcDbEntity
  8
0
  6
Continuous
 62
     7
370
    25
100
AcDbLine
 10
179.4934680851
 20
207.7272311486
 30
0.0
 11
106.4934680851
 21
207.7272311486
 31
0.0
  0
LINE
  5
9A
330
1F
100
AcDbEntity
  8
0
  6
Continuous
 62
     7
370
    25
100
AcDbLine
 10
179.4934680851
 20
218.7272311486
 30
0.0
 11
106.4934680851
 21
218.7272311486
 31
0.0
  0
LINE
  5
9B
330
1F
100
AcDbEntity
  8
0
  6
Continuous
 62
     7
370
    25
100
AcDbLine
 10
162.9934680851
 20
235.7272311486
 30
0.0
 11
122.9934680851
 21
235.7272311486
 31
0.0
  0
LINE
  5
9C
330
1F
100
AcDbEntity
  8
0
  6
Continuous
 62
     7
370
    25
100
AcDbLine
 10
162.9934680851
 20
295.7272311486
 30
0.0
 11
122.9934680851
 21
295.7272311486
 31
0.0
  0
LINE
  5
9D
330
1F
100
AcDbEntity
  8
0
  6
Continuous
 62
     7
370
    25
100
AcDbLine
 10
44.6603530894
 20
155.6714893617
 30
0.0
 11
33.6603530894
 21
155.6714893617
 31
0.0
  0
LINE
  5
9E
330
1F
100
AcDbEntity
  8
0
  6
Continuous
 62
     7
370
    25
100
AcDbLine
 10
33.6603530894
 20
82.6714893617
 30
0.0
 11
44.6603530894
 21
82.6714893617
 31
0.0
  0
LINE
  5
9F
330
1F
100
AcDbEntity
  8
0
  6
Continuous
 62
     7
370
    25
100
AcDbLine
 10
33.6603530894
 20
144.6714893617
 30
0.0
 11
16.6603530894
 21
139.1714893617
 31
0.0
  0
LINE
  5
A0
330
1F
100
AcDbEntity
  8
0
  6
Continuous
 62
     7
370
    25
100
AcDbLine
 10
16.6603530894
 20
99.1714893617
 30
0.0
 11
33.6603530894
 21
93.6714893617
 31
0.0
  0
LINE
  5
A1
330
1F
100
AcDbEntity
  8
0
  6
Continuous
 62
     7
370
    25
100
AcDbLine
 10
16.6603530894
 20
139.1714893617
 30
0.0
 11
-43.3396469106
 21
139.1714893617
 31
0.0
  0
LINE
  5
A2
330
1F
100
AcDbEntity
  8
0
  6
Continuous
 62
     7
370
    25
100
AcDbLine
 10
-43.3396469106
 20
99.1714893617
 30
0.0
 11
16.6603530894
 21
99.1714893617
 31
0.0
  0
LINE
  5
A3
330
1F
100
AcDbEntity
  8
0
  6
Continuous
 62
     7
370
    25
100
AcDbLine
 10
44.6603530894
 20
155.6714893617
 30
0.0
 11
44.6603530894
 21
82.6714893617
 31
0.0
  0
LINE
  5
A4
330
1F
100
AcDbEntity
  8
0
  6
Continuous
 62
     7
370
    25
100
AcDbLine
 10
33.6603530894
 20
155.6714893617
 30
0.0
 11
33.6603530894
 21
82.6714893617
 31
0.0
  0
LINE
  5
A5
330
1F
100
AcDbEntity
  8
0
  6
Continuous
 62
     7
370
    25
100
AcDbLine
 10
16.6603530894
 20
139.1714893617
 30
0.0
 11
16.6603530894
 21
99.1714893617
 31
0.0
  0
LINE
  5
A6
330
1F
100
AcDbEntity
  8
0
  6
Continuous
 62
     7
370
    25
100
AcDbLine
 10
-43.3396469106
 20
139.1714893617
 30
0.0
 11
-43.3396469106
 21
99.1714893617
 31
0.0
  0
LINE
  5
A7
330
1F
100
AcDbEntity
  8
0
  6
Continuous
 62
     7
370
    25
100
AcDbLine
 10
225.0105694433
 20
82.6714893617
 30
0.0
 11
236.0105694433
 21
82.6714893617
 31
0.0
  0
LINE
  5
A8
330
1F
100
AcDbEntity
  8
0
  6
Continuous
 62
     7
370
    25
100
AcDbLine
 10
236.0105694433
 20
155.6714893617
 30
0.0
 11
225.0105694433
 21
155.6714893617
 31
0.0
  0
LINE
  5
A9
330
1F
100
AcDbEntity
  8
0
  6
Continuous
 62
     7
370
    25
100
AcDbLine
 10
236.0105694433
 20
93.6714893617
 30
0.0
 11
253.0105694433
 21
99.1714893617
 31
0.0
  0
LINE
  5
AA
330
1F
100
AcDbEntity
  8
0
  6
Continuous
 62
     7
370
    25
100
AcDbLine
 10
253.0105694433
 20
139.1714893617
 30
0.0
 11
236.0105694433
 21
144.6714893617
 31
0.0
  0
LINE
  5
AB
330
1F
100
AcDbEntity
  8
0
  6
Continuous
 62
     7
370
    25
100
AcDbLine
 10
253.0105694433
 20
99.1714893617
 30
0.0
 11
313.0105694433
 21
99.1714893617
 31
0.0
  0
LINE
  5
AC
330
1F
100
AcDbEntity
  8
0
  6
Continuous
 62
     7
370
    25
100
AcDbLine
 10
313.0105694433
 20
139.1714893617
 30
0.0
 11
253.0105694433
 21
139.1714893617
 31
0.0
  0
LINE
  5
AD
330
1F
100
AcDbEntity
  8
0
  6
Continuous
 62
     7
370
    25
100
AcDbLine
 10
225.0105694433
 20
119.1714893617
 30
0.0
 11
225.0105694433
 21
155.6714893617
 31
0.0
  0
LINE
  5
AE
330
1F
100
AcDbEntity
  8
0
  6
Continuous
 62
     7
370
    25
100
AcDbLine
 10
225.0105694433
 20
82.6714893617
 30
0.0
 11
225.0105694433
 21
119.1714893617
 31
0.0
  0
LINE
  5
AF
330
1F
100
AcDbEntity
  8
0
  6
Continuous
 62
     7
370
    25
100
AcDbLine
 10
236.0105694433
 20
119.1714893617
 30
0.0
 11
236.0105694433
 21
155.6714893617
 31
0.0
  0
LINE
  5
B0
330
1F
100
AcDbEntity
  8
0
  6
Continuous
 62
     7
370
    25
100
AcDbLine
 10
236.0105694433
 20
82.6714893617
 30
0.0
 11
236.0105694433
 21
119.1714893617
 31
0.0
  0
LINE
  5
B1
330
1F
100
AcDbEntity
  8
0
  6
Continuous
 62
     7
370
    25
100
AcDbLine
 10
253.0105694433
 20
119.1714893617
 30
0.0
 11
253.0105694433
 21
139.1714893617
 31
0.0
  0
LINE
  5
B2
330
1F
100
AcDbEntity
  8
0
  6
Continuous
 62
     7
370
    25
100
AcDbLine
 10
253.0105694433
 20
99.1714893617
 30
0.0
 11
253.0105694433
 21
119.1714893617
 31
0.0
  0
LINE
  5
B3
330
1F
100
AcDbEntity
  8
0
  6
Continuous
 62
     7
370
    25
100
AcDbLine
 10
313.0105694433
 20
119.1714893617
 30
0.0
 11
313.0105694433
 21
139.1714893617
 31
0.0
  0
LINE
  5
B4
330
1F
100
AcDbEntity
  8
0
  6
Continuous
 62
     7
370
    25
100
AcDbLine
 10
313.0105694433
 20
99.1714893617
 30
0.0
 11
313.0105694433
 21
119.1714893617
 31
0.0
  0
LINE
  5
B5
330
1F
100
AcDbEntity
  8
0
  6
Continuous
 62
     7
370
    25
100
AcDbLine
 10
106.4934680851
 20
30.0441239739
 30
0.0
 11
106.4934680851
 21
19.0441239739
 31
0.0
  0
LINE
  5
B6
330
1F
100
AcDbEntity
  8
0
  6
Continuous
 62
     7
370
    25
100
AcDbLine
 10
179.4934680851
 20
19.0441239739
 30
0.0
 11
179.4934680851
 21
30.0441239739
 31
0.0
  0
LINE
  5
B7
330
1F
100
AcDbEntity
  8
0
  6
Continuous
 62
     7
370
    25
100
AcDbLine
 10
117.4934680851
 20
19.0441239739
 30
0.0
 11
122.9934680851
 21
2.0441239739
 31
0.0
  0
LINE
  5
B8
330
1F
100
AcDbEntity
  8
0
  6
Continuous
 62
     7
370
    25
100
AcDbLine
 10
162.9934680851
 20
2.0441239739
 30
0.0
 11
168.4934680851
 21
19.0441239739
 31
0.0
  0
LINE
  5
B9
330
1F
100
AcDbEntity
  8
0
  6
Continuous
 62
     7
370
    25
100
AcDbLine
 10
122.9934680851
 20
2.0441239739
 30
0.0
 11
122.9934680851
 21
-57.9558760261
 31
0.0
  0
LINE
  5
BA
330
1F
100
AcDbEntity
  8
0
  6
Continuous
 62
     7
370
    25
100
AcDbLine
 10
162.9934680851
 20
-57.9558760261
 30
0.0
 11
162.9934680851
 21
2.0441239739
 31
0.0
  0
LINE
  5
BB
330
1F
100
AcDbEntity
  8
0
  6
Continuous
 62
     7
370
    25
100
AcDbLine
 10
106.4934680851
 20
30.0441239739
 30
0.0
 11
179.4934680851
 21
30.0441239739
 31
0.0
  0
LINE
  5
BC
330
1F
100
AcDbEntity
  8
0
  6
Continuous
 62
     7
370
    25
100
AcDbLine
 10
106.4934680851
 20
19.0441239739
 30
0.0
 11
179.4934680851
 21
19.0441239739
 31
0.0
  0
LINE
  5
BD
330
1F
100
AcDbEntity
  8
0
  6
Continuous
 62
     7
370
    25
100
AcDbLine
 10
122.9934680851
 20
2.0441239739
 30
0.0
 11
162.9934680851
 21
2.0441239739
 31
0.0
  0
LINE
  5
BE
330
1F
100
AcDbEntity
  8
0
  6
Continuous
 62
     7
370
    25
100
AcDbLine
 10
122.9934680851
 20
-57.9558760261
 30
0.0
 11
162.9934680851
 21
-57.9558760261
 31
0.0
  0
LINE
  5
BF
330
1F
100
AcDbEntity
  8
0
  6
Continuous
 62
     7
370
    25
100
AcDbLine
 10
289.1562351907
 20
14.0204127881
 30
0.0
 11
246.7298283195
 21
38.5126561428
 31
0.0
  0
LINE
  5
C0
330
1F
100
AcDbEntity
  8
0
  6
Continuous
 62
     7
370
    25
100
AcDbLine
 10
226.7314536668
 20
3.8707016475
 30
0.0
 11
269.157860538
 21
-20.6215417072
 31
0.0
  0
LINE
  5
C1
330
1F
100
AcDbEntity
  8
0
  6
Continuous
 62
     7
370
    25
100
AcDbLine
 10
317.2045546082
 20
16.8805054518
 30
0.0
 11
309.4263800151
 21
21.3707500669
 31
0.0
  0
LINE
  5
C2
330
1F
100
AcDbEntity
  8
0
  6
Continuous
 62
     7
370
    25
100
AcDbLine
 10
272.9293462739
 20
-41.8508168869
 30
0.0
 11
280.7075208669
 21
-46.341061502
 31
0.0
  0
LINE
  5
C3
330
1F
100
AcDbEntity
  8
0
  6
Continuous
 62
     7
370
    25
100
AcDbLine
 10
300.671386101
 20
12.9425691999
 30
0.0
 11
287.9968240665
 21
14.6897265833
 31
0.0
  0
LINE
  5
C4
330
1F
100
AcDbEntity
  8
0
  6
Continuous
 62
     7
370
    25
100
AcDbLine
 10
267.9984494137
 20
-19.9522279119
 30
0.0
 11
275.8497611141
 21
-30.0544052154
 31
0.0
  0
LWPOLYLINE
  5
C5
330
1F
100
AcDbEntity
  8
0
  6
Continuous
 62
     7
370
    25
100
AcDbPolyline
 90
       48
 70
   128
 43
0.0
 10
289.1562351907
 20
14.0204127881
 10
289.4926291898
 20
13.8126895913
 10
290.1272621423
 20
13.3385866907
 10
290.7107468918
 20
12.7869043865
 10
291.240362963
 20
12.1602148763
 10
291.7136410413
 20
11.4614400758
 10
292.1283744858
 20
10.6938379957
 10
292.4826296179
 20
9.8609875513
 10
292.7747547364
 20
8.9667718758
 10
293.0033878194
 20
8.0153602155
 10
293.1674628737
 20
7.0111884907
 10
293.2662149058
 20
5.9589386135
 10
293.2991834881
 20
4.8635166587
 10
293.2662149058
 20
3.730029989
 10
293.1674628737
 20
2.5637634425
 10
293.0033878194
 20
1.3701546922
 10
292.7747547364
 20
0.1547688932
 10
292.4826296179
 20
-1.0767272649
 10
292.1283744858
 20
-2.3185919787
 10
291.7136410413
 20
-3.5650351014
 10
291.240362963
 20
-4.8102451399
 10
290.7107468918
 20
-6.0484163502
 10
290.1272621423
 20
-7.2737758065
 10
289.4926291898
 20
-8.4806103174
 10
288.8098069861
 20
-9.6632930633
 10
288.0819791635
 20
-10.8163098313
 10
287.3125391912
 20
-11.934284725
 10
286.5050745536
 20
-13.0120052293
 10
285.6633500237
 20
-14.0444465138
 10
284.7912901096
 20
-15.0267948605
 10
283.8929607573
 20
-15.954470108
 10
282.9725503929
 20
-16.8231470062
 10
282.0343503944
 20
-17.6287753822
 10
281.0827350833
 20
-18.3675990247
 10
280.1221413294
 20
-19.0361731969
 10
279.1570478643
 20
-19.6313806973
 10
278.1919543992
 20
-20.1504463937
 10
277.2313606454
 20
-20.5909501624
 10
276.2797453343
 20
-20.9508381713
 10
275.3415453358
 20
-21.2284324565
 10
274.4211349714
 20
-21.4224387452
 10
273.5228056191
 20
-21.5319524907
 10
272.650745705
 20
-21.5564630892
 10
271.809021175
 20
-21.4958562609
 10
271.0015565374
 20
-21.3504145831
 10
270.2321165652
 20
-21.1208161718
 10
269.5042887425
 20
-20.8081315208
 10
269.157860538
 20
-20.6215417072
  0
LWPOLYLINE
  5
C6
330
1F
100
AcDbEntity
  8
0
  6
Continuous
 62
     7
370
    25
100
AcDbPolyline
 90
       93
 70
   128
 43
0.0
 10
222.5885053694
 20
13.0275977769
 10
222.6214739517
 20
14.1610844466
 10
222.7202259838
 20
15.3273509931
 10
222.8843010381
 20
16.5209597434
 10
223.112934121
 20
17.7363455424
 10
223.4050592396
 20
18.9678417005
 10
223.7593143716
 20
20.2097064143
 10
224.1740478162
 20
21.456149537
 10
224.6473258945
 20
22.7013595755
 10
225.1769419657
 20
23.9395307858
 10
225.7604267151
 20
25.1648902421
 10
226.3950596676
 20
26.371724753
 10
227.0778818713
 20
27.5544074989
 10
227.805709694
 20
28.7074242669
 10
228.5751496662
 20
29.8253991606
 10
229.3826143038
 20
30.9031196649
 10
230.2243388338
 20
31.9355609494
 10
231.0963987479
 20
32.9179092961
 10
231.9947281002
 20
33.8455845436
 10
232.9151384646
 20
34.7142614418
 10
233.8533384631
 20
35.5198898178
 10
234.8049537742
 20
36.2587134603
 10
235.765547528
 20
36.9272876325
 10
236.7306409931
 20
37.5224951329
 10
237.6957344582
 20
38.0415608293
 10
238.6563282121
 20
38.482064598
 10
239.6079435232
 20
38.8419526069
 10
240.5461435217
 20
39.1195468921
 10
241.4665538861
 20
39.3135531808
 10
242.3648832384
 20
39.4230669263
 10
243.2369431525
 20
39.4475775248
 10
244.0786676824
 20
39.3869706965
 10
244.88613232
 20
39.2415290187
 10
245.6555722923
 20
39.0119306074
 10
246.3834001149
 20
38.6992459564
 10
247.0662223187
 20
38.304932946
 10
247.7008552711
 20
37.8308300454
 10
248.2843400206
 20
37.2791477412
 10
248.8139560918
 20
36.6524582309
 10
249.2872341701
 20
35.9536834304
 10
249.7019676146
 20
35.1860813504
 10
250.0562227467
 20
34.353230906
 10
250.3483478652
 20
33.4590152305
 10
250.5769809482
 20
32.5076035702
 10
250.7410560025
 20
31.5034318454
 10
250.8398080346
 20
30.4511819682
 10
250.8727766169
 20
29.3557600134
 10
250.8398080346
 20
28.2222733437
 10
250.7410560025
 20
27.0560067972
 10
250.5769809482
 20
25.8623980469
 10
250.3483478652
 20
24.6470122479
 10
250.0562227467
 20
23.4155160897
 10
249.7019676146
 20
22.173651376
 10
249.2872341701
 20
20.9272082533
 10
248.8139560918
 20
19.6819982148
 10
248.2843400206
 20
18.4438270045
 10
247.7008552711
 20
17.2184675481
 10
247.0662223187
 20
16.0116330372
 10
246.3834001149
 20
14.8289502913
 10
245.6555722923
 20
13.6759335233
 10
244.88613232
 20
12.5579586297
 10
244.0786676824
 20
11.4802381254
 10
243.2369431525
 20
10.4477968409
 10
242.3648832384
 20
9.4654484942
 10
241.4665538861
 20
8.5377732466
 10
240.5461435217
 20
7.6690963485
 10
239.6079435232
 20
6.8634679725
 10
238.6563282121
 20
6.12464433
 10
237.6957344582
 20
5.4560701578
 10
236.7306409931
 20
4.8608626574
 10
235.765547528
 20
4.341796961
 10
234.8049537742
 20
3.9012931923
 10
233.8533384631
 20
3.5414051834
 10
232.9151384646
 20
3.2638108982
 10
231.9947281002
 20
3.0698046094
 10
231.0963987479
 20
2.960290864
 10
230.2243388338
 20
2.9357802655
 10
229.3826143038
 20
2.9963870937
 10
228.5751496662
 20
3.1418287716
 10
227.805709694
 20
3.3714271829
 10
227.0778818713
 20
3.6841118339
 10
226.3950596676
 20
4.0784248443
 10
225.7604267151
 20
4.5525277449
 10
225.1769419657
 20
5.1042100491
 10
224.6473258945
 20
5.7308995593
 10
224.1740478162
 20
6.4296743598
 10
223.7593143716
 20
7.1972764399
 10
223.4050592396
 20
8.0301268843
 10
223.112934121
 20
8.9243425598
 10
222.8843010381
 20
9.8757542201
 10
222.7202259838
 20
10.8799259449
 10
222.6214739517
 20
11.9321758221
 10
222.5885053694
 20
13.0275977769
  0
LWPOLYLINE
  5
C7
330
1F
100
AcDbEntity
  8
0
  6
Continuous
 62
     7
370
    25
100
AcDbPolyline
 90
       84
 70
   128
 43
0.0
 10
225.2048004598
 20
14.5379527838
 10
225.2378099452
 20
15.5635982624
 10
225.3366493261
 20
16.6214808772
 10
225.5007524594
 20
17.7055411724
 10
225.7291793772
 20
18.8095697488
 10
226.0206216709
 20
19.9272428307
 10
226.3734099854
 20
21.0521584878
 10
226.7855235811
 20
22.1778733051
 10
227.2546019088
 20
23.2979392902
 10
227.7779581302
 20
24.4059408065
 10
228.3525945083
 20
25.4955313217
 10
228.9752195779
 20
26.5604697599
 10
229.6422669991
 20
27.5946562502
 10
230.3499159846
 20
28.5921670661
 10
231.0941131852
 20
29.5472885559
 10
231.8705959065
 20
30.4545498703
 10
232.674916526
 20
31.3087542985
 10
233.502467968
 20
32.1050090351
 10
234.3485100927
 20
32.8387532049
 10
235.2081968475
 20
33.5057839878
 10
236.0766040244
 20
34.1022806919
 10
236.9487574659
 20
34.6248266381
 10
237.819661556
 20
35.0704287305
 10
238.684327835
 20
35.4365346007
 10
239.5378035726
 20
35.7210472274
 10
240.3752001372
 20
35.9223369481
 10
241.1917209971
 20
36.0392507934
 10
241.9826891947
 20
36.0711190915
 10
242.7435741358
 20
36.0177593037
 10
243.4700175404
 20
35.8794770699
 10
244.1578584064
 20
35.6570644582
 10
244.8031568437
 20
35.3517954281
 10
245.4022166413
 20
34.9654185327
 10
245.9516064388
 20
34.5001469041
 10
246.4481793814
 20
33.9586455759
 10
246.889091144
 20
33.3440162187
 10
247.2718162241
 20
32.6597793739
 10
247.5941624071
 20
31.909854288
 10
247.8542833232
 20
31.0985364642
 10
248.0506890234
 20
30.2304730573
 10
248.1822545137
 20
29.310636256
 10
248.2482261987
 20
28.3442948022
 10
248.2482261987
 20
27.3369838122
 10
248.1822545137
 20
26.2944730722
 10
248.0506890234
 20
25.2227339892
 10
247.8542833232
 20
24.1279053877
 10
247.5941624071
 20
23.0162583468
 10
247.2718162241
 20
21.89416028
 10
246.889091144
 20
20.7680384634
 10
246.4481793814
 20
19.6443432209
 10
245.9516064388
 20
18.5295109769
 10
245.4022166413
 20
17.4299273898
 10
244.8031568437
 20
16.3518907746
 10
244.1578584064
 20
15.3015760274
 10
243.4700175404
 20
14.2849992561
 10
242.7435741358
 20
13.3079833203
 10
241.9826891947
 20
12.3761244788
 10
241.1917209971
 20
11.4947603347
 10
240.3752001372
 20
10.6689392619
 10
239.5378035726
 20
9.9033914888
 10
238.684327835
 20
9.2025020037
 10
237.819661556
 20
8.5702854382
 10
236.9487574659
 20
8.0103630713
 10
236.0766040244
 20
7.5259420878
 10
235.2081968475
 20
7.1197972072
 10
234.3485100927
 20
6.7942547906
 10
233.502467968
 20
6.5511795154
 10
232.674916526
 20
6.3919636948
 10
231.8705959065
 20
6.3175193026
 10
231.0941131852
 20
6.3282727496
 10
230.3499159846
 20
6.424162441
 10
229.6422669991
 20
6.6046391293
 10
228.9752195779
 20
6.8686690603
 10
228.3525945083
 20
7.2147398946
 10
227.7779581302
 20
7.6408693698
 10
227.2546019088
 20
8.1446166548
 10
226.7855235811
 20
8.7230963308
 10
226.3734099854
 20
9.3729949185
 10
226.0206216709
 20
10.0905898578
 10
225.7291793772
 20
10.8717708297
 10
225.5007524594
 20
11.7120633006
 10
225.3366493261
 20
12.606654151
 10
225.2378099452
 20
13.5504192458
 10
225.2048004598
 20
14.5379527838
  0
LWPOLYLINE
  5
C8
330
1F
100
AcDbEntity
  8
0
  6
Continuous
 62
     7
370
    25
100
AcDbPolyline
 90
       64
 70
   128
 43
0.0
 10
317.2045546082
 20
16.8805054518
 10
317.6625028979
 20
16.602525121
 10
318.5391277426
 20
15.9881350792
 10
319.3654830761
 20
15.2948913115
 10
320.1394476561
 20
14.5245733647
 10
320.8590347266
 20
13.679158634
 10
321.522397118
 20
12.7608172869
 10
322.1278319886
 20
11.7719066923
 10
322.6737851956
 20
10.7149653697
 10
323.1588552851
 20
9.5927064722
 10
323.581797089
 20
8.4080108224
 10
323.9415249219
 20
7.1639195169
 10
324.2371153675
 20
5.8636261204
 10
324.4678096494
 20
4.5104684673
 10
324.6330155788
 20
3.1079200939
 10
324.7323090742
 20
1.6595813217
 10
324.7654352509
 20
0.1691700157
 10
324.7323090742
 20
-1.3594879597
 10
324.6330155788
 20
-2.9224685615
 10
324.4678096494
 20
-4.5157596409
 10
324.2371153675
 20
-6.1352712424
 10
323.9415249219
 20
-7.7768461031
 10
323.581797089
 20
-9.4362703237
 10
323.1588552851
 20
-11.1092841863
 10
322.6737851956
 20
-12.791593088
 10
322.1278319886
 20
-14.4788785662
 10
321.522397118
 20
-16.1668093833
 10
320.8590347266
 20
-17.8510526449
 10
320.1394476561
 20
-19.5272849228
 10
319.3654830761
 20
-21.1912033528
 10
318.5391277426
 20
-22.8385366802
 10
317.6625028979
 20
-24.4650562239
 10
316.7378588255
 20
-26.0665867315
 10
315.7675690734
 20
-27.6390170973
 10
314.7541243614
 20
-29.1783109151
 10
313.7001261876
 20
-30.6805168396
 10
312.6082801503
 20
-32.1417787299
 10
311.4813890025
 20
-33.5583455475
 10
310.3223454576
 20
-34.9265809859
 10
309.1341247639
 20
-36.2429728042
 10
307.9197770667
 20
-37.5041418436
 10
306.6824195792
 20
-38.7068507012
 10
305.4252285803
 20
-39.8480120405
 10
304.1514312614
 20
-40.9246965169
 10
302.8642974417
 20
-41.9341402968
 10
301.5671311755
 20
-42.8737521523
 10
300.2632622698
 20
-43.7411201134
 10
298.9560377375
 20
-44.5340176589
 10
297.6488132053
 20
-45.2504094322
 10
296.3449442996
 20
-45.8884564659
 10
295.0477780334
 20
-46.4465209025
 10
293.7606442137
 20
-46.9231701984
 10
292.4868468948
 20
-47.3171808019
 10
291.2296558959
 20
-47.6275412933
 10
289.9922984084
 20
-47.8534549817
 10
288.7779507112
 20
-47.9943419499
 10
287.5897300175
 20
-48.0498405431
 10
286.4306864726
 20
-48.0198082972
 10
285.3037953248
 20
-47.9043223045
 10
284.2119492874
 20
-47.7036790159
 10
283.1579511137
 20
-47.4183934799
 10
282.1445064017
 20
-47.0491980204
 10
281.1742166496
 20
-46.5970403567
 10
280.7075208669
 20
-46.341061502
  0
ARC
  5
C9
330
1F
100
AcDbEntity
  8
0
  6
Continuous
 62
     7
370
    25
100
AcDbCircle
 10
305.6805180945
 20
-25.342049593
 30
0.0
 40
40.31256141270765
100
AcDbArc
 50
170.5844934383
 51
179.7120910195
  0
LWPOLYLINE
  5
CA
330
1F
100
AcDbEntity
  8
0
  6
Continuous
 62
     7
370
    25
100
AcDbPolyline
 90
      100
 70
   128
 43
0.0
 10
285.9094252721
 20
15.8947562576
 10
285.9824696207
 20
15.9543850819
 10
287.2696034403
 20
16.9638288617
 10
288.5667697066
 20
17.9034407172
 10
289.8706386122
 20
18.7708086783
 10
291.1778631445
 20
19.5637062238
 10
292.4850876768
 20
20.2800979971
 10
293.7889565824
 20
20.9181450308
 10
295.0861228487
 20
21.4762094674
 10
296.3732566683
 20
21.9528587633
 10
297.6470539873
 20
22.3468693668
 10
298.9042449861
 20
22.6572298582
 10
300.1416024736
 20
22.8831435466
 10
301.3559501708
 20
23.0240305148
 10
302.5441708646
 20
23.079529108
 10
303.7032144095
 20
23.0494968621
 10
304.8301055573
 20
22.9340108694
 10
305.9219515946
 20
22.7333675808
 10
306.9759497683
 20
22.4480820448
 10
307.9893944803
 20
22.0788865853
 10
308.9596842324
 20
21.6267289216
 10
309.8843283049
 20
21.0927697361
 10
310.7609531495
 20
20.4783796942
 10
311.587308483
 20
19.7851359265
 10
312.361273063
 20
19.0148179798
 10
313.0808601336
 20
18.1694032491
 10
313.744222525
 20
17.2510619019
 10
314.3496573955
 20
16.2621513073
 10
314.8956106026
 20
15.2052099847
 10
315.380680692
 20
14.0829510873
 10
315.803622496
 20
12.8982554374
 10
316.1633503289
 20
11.654164132
 10
316.4589407745
 20
10.3538707354
 10
316.6896350564
 20
9.0007130823
 10
316.8548409857
 20
7.5981647089
 10
316.9541344812
 20
6.1498259368
 10
316.9872606578
 20
4.6594146307
 10
316.9541344812
 20
3.1307566553
 10
316.8548409857
 20
1.5677760535
 10
316.6896350564
 20
-0.0255150258
 10
316.4589407745
 20
-1.6450266274
 10
316.1633503289
 20
-3.286601488
 10
315.803622496
 20
-4.9460257087
 10
315.380680692
 20
-6.6190395712
 10
314.8956106026
 20
-8.301348473
 10
314.3496573955
 20
-9.9886339512
 10
313.744222525
 20
-11.6765647682
 10
313.0808601336
 20
-13.3608080298
 10
312.361273063
 20
-15.0370403078
 10
311.587308483
 20
-16.7009587378
 10
310.7609531495
 20
-18.3482920652
 10
309.8843283049
 20
-19.9748116088
 10
308.9596842324
 20
-21.5763421165
 10
307.9893944803
 20
-23.1487724823
 10
306.9759497683
 20
-24.6880663001
 10
305.9219515946
 20
-26.1902722246
 10
304.8301055573
 20
-27.6515341149
 10
303.7032144095
 20
-29.0681009325
 10
302.5441708646
 20
-30.4363363709
 10
301.3559501708
 20
-31.7527281892
 10
300.1416024736
 20
-33.0138972286
 10
298.9042449861
 20
-34.2166060861
 10
297.6470539873
 20
-35.3577674255
 10
296.3732566683
 20
-36.4344519019
 10
295.0861228487
 20
-37.4438956817
 10
293.7889565824
 20
-38.3835075373
 10
292.4850876768
 20
-39.2508754983
 10
291.1778631445
 20
-40.0437730439
 10
289.8706386122
 20
-40.7601648172
 10
288.5667697066
 20
-41.3982118509
 10
287.2696034403
 20
-41.9562762875
 10
285.9824696207
 20
-42.4329255834
 10
284.7086723017
 20
-42.8269361869
 10
283.4514813029
 20
-43.1372966783
 10
282.2141238154
 20
-43.3632103667
 10
280.9997761182
 20
-43.5040973349
 10
279.8115554244
 20
-43.5595959281
 10
278.6525118795
 20
-43.5295636821
 10
277.5256207317
 20
-43.4140776895
 10
276.4337746944
 20
-43.2134344009
 10
275.3797765206
 20
-42.9281488649
 10
274.3663318087
 20
-42.5589534053
 10
273.3960420566
 20
-42.1067957417
 10
272.4713979841
 20
-41.5728365561
 10
271.5947731395
 20
-40.9584465143
 10
270.768417806
 20
-40.2652027466
 10
269.994453226
 20
-39.4948847998
 10
269.2748661554
 20
-38.6494700691
 10
268.611503764
 20
-37.731128722
 10
268.0060688935
 20
-36.7422181274
 10
267.4601156864
 20
-35.6852768048
 10
266.975045597
 20
-34.5630179073
 10
266.552103793
 20
-33.3783222575
 10
266.1923759601
 20
-32.134230952
 10
265.8967855145
 20
-30.8339375555
 10
265.6660912326
 20
-29.4807799024
 10
265.5008853033
 20
-28.078231529
 10
265.4015918078
 20
-26.6298927568
 10
265.3684656312
 20
-25.1394814508
 10
265.3684656312
 20
-25.1394814508
  0
LWPOLYLINE
  5
CB
330
1F
100
AcDbEntity
  8
0
  6
Continuous
 62
     7
370
    25
100
AcDbPolyline
 90
       61
 70
   128
 43
0.0
 10
300.671386101
 20
12.9425691999
 10
301.4207652259
 20
12.8090659053
 10
302.298058616
 20
12.5700884698
 10
303.1347756187
 20
12.2478793732
 10
303.9278631445
 20
11.8436143217
 10
304.674427303
 20
11.3587684344
 10
305.3717439625
 20
10.7951108615
 10
306.0172686902
 20
10.1546983284
 10
306.6086460363
 20
9.4398676309
 10
307.1437181291
 20
8.6532271087
 10
307.6205325485
 20
7.7976471278
 10
308.0373494504
 20
6.8762496067
 10
308.3926479151
 20
5.8923966252
 10
308.6851314971
 20
4.8496781559
 10
308.9137329555
 20
3.7518989655
 10
309.0776181483
 20
2.6030647313
 10
309.1761890762
 20
1.4073674248
 10
309.2090860648
 20
0.1691700157
 10
309.1761890762
 20
-1.1070094478
 10
309.0776181483
 20
-2.4165143253
 10
308.9137329555
 20
-3.7545663756
 10
308.6851314971
 20
-5.1162831917
 10
308.3926479151
 20
-6.4966960167
 10
308.0373494504
 20
-7.8907678738
 10
307.6205325485
 20
-9.2934119462
 10
307.1437181291
 20
-10.6995101376
 10
306.6086460363
 20
-12.1039317483
 10
306.0172686902
 20
-13.5015521961
 10
305.3717439625
 20
-14.8872717155
 10
304.674427303
 20
-16.2560339663
 10
303.9278631445
 20
-17.6028444835
 10
303.1347756187
 20
-18.9227889016
 10
302.298058616
 20
-20.2110508865
 10
301.4207652259
 20
-21.46292971
 10
300.506096597
 20
-22.6738574019
 10
299.5573902558
 20
-23.8394154185
 10
298.5781079289
 20
-24.955350765
 10
297.5718229114
 20
-26.0175915142
 10
296.542207028
 20
-27.022261665
 10
295.4930172356
 20
-27.9656952848
 10
294.4280819138
 20
-28.8444498868
 10
293.3512868962
 20
-29.6553189906
 10
292.2665612911
 20
-30.3953438228
 10
291.1778631445
 20
-31.0618241131
 10
290.0891649979
 20
-31.6523279472
 10
289.0044393927
 20
-32.1647006406
 10
287.9276443752
 20
-32.597072601
 10
286.8627090534
 20
-32.9478661499
 10
285.813519261
 20
-33.2158012797
 10
284.7839033776
 20
-33.3999003242
 10
283.77761836
 20
-33.4994915259
 10
282.7983360332
 20
-33.5142114874
 10
281.849629692
 20
-33.4440064971
 10
280.934961063
 20
-33.2891327254
 10
280.057667673
 20
-33.0501552899
 10
279.2209506703
 20
-32.7279461933
 10
278.4278631445
 20
-32.3236811417
 10
277.681298986
 20
-31.8388352545
 10
276.9839823265
 20
-31.2751776816
 10
276.3384575988
 20
-30.6347651485
 10
275.8497611141
 20
-30.0544052154
  0
ENDSEC
  0
SECTION
  2
OBJECTS
  0
DICTIONARY
  5
C
330
0
100
AcDbDictionary
281
     1
  3
ACAD_GROUP
350
D
  3
ACAD_LAYOUT
350
1A
  3
ACAD_MLINESTYLE
350
17
  3
ACAD_PLOTSETTINGS
350
19
  3
ACAD_PLOTSTYLENAME
350
E
  3
ACAD_SCALELIST
350
47
  0
DICTIONARY
  5
D
102
{ACAD_REACTORS
330
C
102
}
330
C
100
AcDbDictionary
281
     1
  0
DICTIONARY
  5
1A
102
{ACAD_REACTORS
330
C
102
}
330
C
100
AcDbDictionary
281
     1
  3
Layout1
350
1E
  3
Layout2
350
26
  3
Model
350
22
  0
DICTIONARY
  5
17
102
{ACAD_REACTORS
330
C
102
}
330
C
100
AcDbDictionary
281
     1
  3
Standard
350
18
  0
DICTIONARY
  5
19
102
{ACAD_REACTORS
330
C
102
}
330
C
100
AcDbDictionary
281
     1
  0
ACDBDICTIONARYWDFLT
  5
E
102
{ACAD_REACTORS
330
C
102
}
330
C
100
AcDbDictionary
281
     1
  3
Normal
350
F
100
AcDbDictionaryWithDefault
340
F
  0
DICTIONARY
  5
47
102
{ACAD_REACTORS
330
C
102
}
330
C
100
AcDbDictionary
281
     1
  3
A0
350
48
  3
A1
350
49
  3
A2
350
4A
  3
A3
350
4B
  3
A4
350
4C
  3
A5
350
4D
  3
A6
350
4E
  3
A7
350
4F
  3
A8
350
50
  3
A9
350
51
  3
B0
350
52
  3
B1
350
53
  3
B2
350
54
  3
B3
350
55
  3
B4
350
56
  3
B5
350
57
  3
B6
350
58
  3
B7
350
59
  3
B8
350
5A
  3
B9
350
5B
  3
C0
350
5C
  3
C1
350
5D
  3
C2
350
5E
  3
C3
350
5F
  3
C4
350
60
  3
C5
350
61
  3
C6
350
62
  3
C7
350
63
  3
C8
350
64
  3
C9
350
65
  3
D0
350
66
  3
D1
350
67
  3
D2
350
68
  0
LAYOUT
  5
1E
102
{ACAD_REACTORS
330
1A
102
}
330
1A
100
AcDbPlotSettings
  1

  2
none_device
  4

  6

 40
0.0
 41
0.0
 42
0.0
 43
0.0
 44
0.0
 45
0.0
 46
0.0
 47
0.0
 48
0.0
 49
0.0
140
0.0
141
0.0
142
1.0
143
1.0
 70
   688
 72
     1
 73
     0
 74
     5
  7

 75
    16
147
1.0
148
0.0
149
0.0
100
AcDbLayout
  1
Layout1
 70
     1
 71
     1
 10
0.0
 20
0.0
 11
420.0
 21
297.0
 12
0.0
 22
0.0
 32
0.0
 14
1.0000000000E+20
 24
1.0000000000E+20
 34
1.0000000000E+20
 15
-1.0000000000E+20
 25
-1.0000000000E+20
 35
-1.0000000000E+20
146
0.0
 13
0.0
 23
0.0
 33
0.0
 16
1.0
 26
0.0
 36
0.0
 17
0.0
 27
1.0
 37
0.0
 76
     0
330
1B
  0
LAYOUT
  5
26
102
{ACAD_REACTORS
330
1A
102
}
330
1A
100
AcDbPlotSettings
  1

  2
none_device
  4

  6

 40
0.0
 41
0.0
 42
0.0
 43
0.0
 44
0.0
 45
0.0
 46
0.0
 47
0.0
 48
0.0
 49
0.0
140
0.0
141
0.0
142
1.0
143
1.0
 70
   688
 72
     1
 73
     0
 74
     5
  7

 75
    16
147
1.0
148
0.0
149
0.0
100
AcDbLayout
  1
Layout2
 70
     1
 71
     2
 10
0.0
 20
0.0
 11
0.0
 21
0.0
 12
0.0
 22
0.0
 32
0.0
 14
0.0
 24
0.0
 34
0.0
 15
0.0
 25
0.0
 35
0.0
146
0.0
 13
0.0
 23
0.0
 33
0.0
 16
1.0
 26
0.0
 36
0.0
 17
0.0
 27
1.0
 37
0.0
 76
     0
330
23
  0
LAYOUT
  5
22
102
{ACAD_REACTORS
330
1A
102
}
330
1A
100
AcDbPlotSettings
  1

  2
none_device
  4
Letter_(8.50_x_11.00_Inches)
  6

 40
6.35
 41
6.35
 42
6.35000508
 43
6.35000508
 44
215.9
 45
279.4
 46
0.0
 47
0.0
 48
0.0
 49
0.0
140
0.0
141
0.0
142
1.0
143
1.0
 70
  1712
 72
     1
 73
     0
 74
     0
  7

 75
     0
147
1.0
148
0.0
149
0.0
100
AcDbLayout
  1
Model
 70
     1
 71
     0
 10
0.0
 20
0.0
 11
279.4
 21
215.9
 12
0.0
 22
0.0
 32
0.0
 14
0.0
 24
0.0
 34
0.0
 15
279.4
 25
215.9
 35
0.0
146
0.0
 13
0.0
 23
0.0
 33
0.0
 16
1.0
 26
0.0
 36
0.0
 17
0.0
 27
1.0
 37
0.0
 76
     0
330
1F
331
29
  0
MLINESTYLE
  5
18
102
{ACAD_REACTORS
330
17
102
}
330
17
100
AcDbMlineStyle
  2
Standard
 70
     0
  3

 62
   256
 51
90.0
 52
90.0
 71
     2
 49
0.5
 62
   256
  6
BYLAYER
 49
-0.5
 62
   256
  6
BYLAYER
  0
ACDBPLACEHOLDER
  5
F
102
{ACAD_REACTORS
330
E
102
}
330
E
  0
SCALE
  5
48
102
{ACAD_REACTORS
330
47
102
}
330
47
100
AcDbScale
 70
     0
300
1:1
140
1.0
141
1.0
290
     1
  0
SCALE
  5
49
102
{ACAD_REACTORS
330
47
102
}
330
47
100
AcDbScale
 70
     0
300
1:2
140
1.0
141
2.0
290
     0
  0
SCALE
  5
4A
102
{ACAD_REACTORS
330
47
102
}
330
47
100
AcDbScale
 70
     0
300
1:4
140
1.0
141
4.0
290
     0
  0
SCALE
  5
4B
102
{ACAD_REACTORS
330
47
102
}
330
47
100
AcDbScale
 70
     0
300
1:5
140
1.0
141
5.0
290
     0
  0
SCALE
  5
4C
102
{ACAD_REACTORS
330
47
102
}
330
47
100
AcDbScale
 70
     0
300
1:8
140
1.0
141
8.0
290
     0
  0
SCALE
  5
4D
102
{ACAD_REACTORS
330
47
102
}
330
47
100
AcDbScale
 70
     0
300
1:10
140
1.0
141
10.0
290
     0
  0
SCALE
  5
4E
102
{ACAD_REACTORS
330
47
102
}
330
47
100
AcDbScale
 70
     0
300
1:16
140
1.0
141
16.0
290
     0
  0
SCALE
  5
4F
102
{ACAD_REACTORS
330
47
102
}
330
47
100
AcDbScale
 70
     0
300
1:20
140
1.0
141
20.0
290
     0
  0
SCALE
  5
50
102
{ACAD_REACTORS
330
47
102
}
330
47
100
AcDbScale
 70
     0
300
1:30
140
1.0
141
30.0
290
     0
  0
SCALE
  5
51
102
{ACAD_REACTORS
330
47
102
}
330
47
100
AcDbScale
 70
     0
300
1:40
140
1.0
141
40.0
290
     0
  0
SCALE
  5
52
102
{ACAD_REACTORS
330
47
102
}
330
47
100
AcDbScale
 70
     0
300
1:50
140
1.0
141
50.0
290
     0
  0
SCALE
  5
53
102
{ACAD_REACTORS
330
47
102
}
330
47
100
AcDbScale
 70
     0
300
1:100
140
1.0
141
100.0
290
     0
  0
SCALE
  5
54
102
{ACAD_REACTORS
330
47
102
}
330
47
100
AcDbScale
 70
     0
300
2:1
140
2.0
141
1.0
290
     0
  0
SCALE
  5
55
102
{ACAD_REACTORS
330
47
102
}
330
47
100
AcDbScale
 70
     0
300
4:1
140
4.0
141
1.0
290
     0
  0
SCALE
  5
56
102
{ACAD_REACTORS
330
47
102
}
330
47
100
AcDbScale
 70
     0
300
8:1
140
8.0
141
1.0
290
     0
  0
SCALE
  5
57
102
{ACAD_REACTORS
330
47
102
}
330
47
100
AcDbScale
 70
     0
300
10:1
140
10.0
141
1.0
290
     0
  0
SCALE
  5
58
102
{ACAD_REACTORS
330
47
102
}
330
47
100
AcDbScale
 70
     0
300
100:1
140
100.0
141
1.0
290
     0
  0
SCALE
  5
59
102
{ACAD_REACTORS
330
47
102
}
330
47
100
AcDbScale
 70
     0
300
1/128" = 1'-0"
140
0.0078125
141
12.0
290
     0
  0
SCALE
  5
5A
102
{ACAD_REACTORS
330
47
102
}
330
47
100
AcDbScale
 70
     0
300
1/64" = 1'-0"
140
0.015625
141
12.0
290
     0
  0
SCALE
  5
5B
102
{ACAD_REACTORS
330
47
102
}
330
47
100
AcDbScale
 70
     0
300
1/32" = 1'-0"
140
0.03125
141
12.0
290
     0
  0
SCALE
  5
5C
102
{ACAD_REACTORS
330
47
102
}
330
47
100
AcDbScale
 70
     0
300
1/16" = 1'-0"
140
0.0625
141
12.0
290
     0
  0
SCALE
  5
5D
102
{ACAD_REACTORS
330
47
102
}
330
47
100
AcDbScale
 70
     0
300
3/32" = 1'-0"
140
0.09375
141
12.0
290
     0
  0
SCALE
  5
5E
102
{ACAD_REACTORS
330
47
102
}
330
47
100
AcDbScale
 70
     0
300
1/8" = 1'-0"
140
0.125
141
12.0
290
     0
  0
SCALE
  5
5F
102
{ACAD_REACTORS
330
47
102
}
330
47
100
AcDbScale
 70
     0
300
3/16" = 1'-0"
140
0.1875
141
12.0
290
     0
  0
SCALE
  5
60
102
{ACAD_REACTORS
330
47
102
}
330
47
100
AcDbScale
 70
     0
300
1/4" = 1'-0"
140
0.25
141
12.0
290
     0
  0
SCALE
  5
61
102
{ACAD_REACTORS
330
47
102
}
330
47
100
AcDbScale
 70
     0
300
3/8" = 1'-0"
140
0.375
141
12.0
290
     0
  0
SCALE
  5
62
102
{ACAD_REACTORS
330
47
102
}
330
47
100
AcDbScale
 70
     0
300
1/2" = 1'-0"
140
0.5
141
12.0
290
     0
  0
SCALE
  5
63
102
{ACAD_REACTORS
330
47
102
}
330
47
100
AcDbScale
 70
     0
300
3/4" = 1'-0"
140
0.75
141
12.0
290
     0
  0
SCALE
  5
64
102
{ACAD_REACTORS
330
47
102
}
330
47
100
AcDbScale
 70
     0
300
1" = 1'-0"
140
1.0
141
12.0
290
     0
  0
SCALE
  5
65
102
{ACAD_REACTORS
330
47
102
}
330
47
100
AcDbScale
 70
     0
300
1-1/2" = 1'-0"
140
1.5
141
12.0
290
     0
  0
SCALE
  5
66
102
{ACAD_REACTORS
330
47
102
}
330
47
100
AcDbScale
 70
     0
300
3" = 1'-0"
140
3.0
141
12.0
290
     0
  0
SCALE
  5
67
102
{ACAD_REACTORS
330
47
102
}
330
47
100
AcDbScale
 70
     0
300
6" = 1'-0"
140
6.0
141
12.0
290
     0
  0
SCALE
  5
68
102
{ACAD_REACTORS
330
47
102
}
330
47
100
AcDbScale
 70
     0
300
1'-0" = 1'-0"
140
12.0
141
12.0
290
     0
  0
ENDSEC
  0
EOF
